Forum Liebe-de-th






Hallo die Leute!!!

Bienvenue à toi sur Liebe, si tu n'es pas un de nos membres. Sur Liebe, nous te proposons un tas de possibilités. Tu pourras te tenir au courant de toute l'actualité TokioHotelienne, rencontrer de nouvelles personnes, et même participer au RPG. Choisis ton personnage et fais avancer l'histoire.

Pour plus de renseignements, nous t'invitons à t'inscrire et à nous rejoindre!!

Le Staff.


Forum Liebe-de-th
Le RPG a besoin de personnages. Nous recherchons en priorité Franziska Schäfer, David Jost, Liam Ivanof, Adam Straus.

Partagez | 
 

 [Guitare]An deiner seite

Voir le sujet précédent Voir le sujet suivant Aller en bas 
AuteurMessage
● Modératrice ●




Hey, je m'appelle

lili

Féminin
Nombre de messages : 3806
Age : 29
Ta chanson coup de coeur : ....
Date d'inscription : 01/10/2007



MessageSujet: [Guitare]An deiner seite   Lun 24 Aoû - 17:36

Bon voici la tablature de TH "an deiner seite " elle est simple et donne très bien je la conseille au presque débutants car si vous la bossez bien je suis sure que vous en serez hautement satisfaits
L'accordage est normal en Mi

Le morceau se découpe en MOTIFS que je vais appeler par des lettres pa de panique vous allez piger!!!!!!







celui la s appelle A il revient trés souvent dans la chanson
-----------------------------------------------
-----------------------------------------------
-----------------------------------------------
--5--5--5--5--5--5--5----6--6--6--6--6--6--6--6
--6--6--6--6--6--6--6----6--6--6--6--6--6--6--6
--6--6--6--6--6--6--6----6--6--6--6--6--6--6--6


B
-----------------------------------------------
-----------------------------------------------
-----------------------------------------------
--5--5--5--5--5--5--5----6--6--6--6--6--6--6--6
--5--5--5--5--5--5--5----6--6--6--6--6--6--6--6
--3--3--3--3--3--3--3----4--4--4--4--4--4--4--4

C
---------------------------------------------
---------------------------------------------
---------------------------------------------
8--8--8--8--8--8--8----6--6--6--6--6--6--6--6
8--8--8--8--8--8--8----6--6--6--6--6--6--6--6
6--6--6--6--6--6--6----4--4--4--4--4--4--4--4


D
----------------------------------------------------
----------------------------------------------------
----------------------------------------------------
10--10--10--10--10--10--10----6--6--6--6--6--6--6--6
10--10--10--10--10--10--10----6--6--6--6--6--6--6--6
8--8--8--8--8--8--8--8--8-----4--4--4--4--4--4--4--4

intro et couplet
motifs:A A A B A A A D A C A C

Refrain
A A D A A A D A

Couplet 2
A A D A A A D A C A C A A

Refrain
A A D A A A D A

Pont "Wenn du die Welt...."




------------------------------------------------------------------------------------------
------------------------------------------------------------------------------------------
------------------------------------------------------------------------------------------
6--6--6--6--6--6--6--6--10--10--10--10--10--10--10--10----8--8--8--8--8--8--8--8---6-6-6-6
6--6--6--6--6--6--6--6--10--10--10--10--10--10--10--10----8--8--8--8--8--8--8--8---6-6-6-6
4--4--4--4--4--4--4--4--8--8--8--8--8--8--8--8--8---8-----6--6--6--6--6--6--6--6---4-4-4-4


------------------------------------------------------------------------------------------
------------------------------------------------------------------------------------------
------------------------------------------------------------------------------------------
6--6--6--6--6--6--6--6--10--10--10--10--10--10--10--10----8--8--8--8--8--8--8--8---6-6-6-6
6--6--6--6--6--6--6--6--10--10--10--10--10--10--10--10----8--8--8--8--8--8--8--8---6-6-6-6
4--4--4--4--4--4--4--4--8--8--8--8--8--8--8--8--8---8-----6--6--6--6--6--6--6--6---4-4-4-4

------------------------------------------------------------------------------------
-------------------------------------------------------------------------------------
-------------------------------------------------------------------------------------
8--8--8--8--8--8--8----6-6-6-6-6-6-6-6--8--8--8--8--8--8--8----6--6--6--6--6--6--6--6
8--8--8--8--8--8--8----6-6-6-6-6-6-6-6--8--8--8--8--8--8--8----6--6--6--6--6--6--6--6
6--6--6--6--6--6--6----4-4-4-4-4-4-4-4--6--6--6--6--6--6--6----4--4--4--4--4--4--4--4



Transition.....
---------------------------------------------
---------------------------------------------
---------------------------------------------
5--5--5--5--5--5--5----6--6--6--6--6--6--6--6
6--6--6--6--6--6--6----6--6--6--6--6--6--6--6
6--6--6--6--6--6--6----6--6--6--6--6--6--6--6


La c le moment du dernier refrain ou bill "monte " mais si vous écoutez A T T E N T I V E M E N vous verrez que c presqu pareil que le pon c



------------------------------------------------------------------------------------------
------------------------------------------------------------------------------------------
------------------------------------------------------------------------------------------
6--6--6--6--6--6--6--6--10--10--10--10--10--10--10--10----8--8--8--8--8--8--8--8---6-6-6-6
6--6--6--6--6--6--6--6--10--10--10--10--10--10--10--10----8--8--8--8--8--8--8--8---6-6-6-6
4--4--4--4--4--4--4--4--8--8--8--8--8--8--8--8--8---8-----6--6--6--6--6--6--6--6---4-4-4-4


------------------------------------------------------------------------------------------
------------------------------------------------------------------------------------------
------------------------------------------------------------------------------------------
6--6--6--6--6--6--6--6--10--10--10--10--10--10--10--10----8--8--8--8--8--8--8--8---6-6-6-6
6--6--6--6--6--6--6--6--10--10--10--10--10--10--10--10----8--8--8--8--8--8--8--8---6-6-6-6
4--4--4--4--4--4--4--4--8--8--8--8--8--8--8--8--8---8-----6--6--6--6--6--6--6--6---4-4-4-4


------------------------------------------------------------------------------------------
------------------------------------------------------------------------------------------
------------------------------------------------------------------------------------------
6--6--6--6--6--6--6--6--10--10--10--10--10--10--10--10----8--8--8--8--8--8--8--8---6-6-6-6
6--6--6--6--6--6--6--6--10--10--10--10--10--10--10--10----8--8--8--8--8--8--8--8---6-6-6-6
4--4--4--4--4--4--4--4--8--8--8--8--8--8--8--8--8---8-----6--6--6--6--6--6--6--6---4-4-4-4

------------------------------------------------------------------------------------------
------------------------------------------------------------------------------------------
------------------------------------------------------------------------------------------
6--6--6--6--6--6--6--6--10--10--10--10--10--10--10--10----8--8--8--8--8--8--8--8---6-6-6-6
6--6--6--6--6--6--6--6--10--10--10--10--10--10--10--10----8--8--8--8--8--8--8--8---6-6-6-6
4--4--4--4--4--4--4--4--8--8--8--8--8--8--8--8--8---8-----6--6--6--6--6--6--6--6---4-4-4-4


------------------------------------------------------------------------------------
-------------------------------------------------------------------------------------
-------------------------------------------------------------------------------------
8--8--8--8--8--8--8----6-6-6-6-6-6-6-6--8--8--8--8--8--8--8----6--6--6--6--6--6--6--6
8--8--8--8--8--8--8----6-6-6-6-6-6-6-6--8--8--8--8--8--8--8----6--6--6--6--6--6--6--6
6--6--6--6--6--6--6----4-4-4-4-4-4-4-4--6--6--6--6--6--6--6----4--4--4--4--4--4--4--4



Final
--------------------------------------------
---------------------------------------------
5--5--5--5--5--5--5----6--6--6--6--6--6--6--6-
6--6--6--6--6--6--6----6--6--6--6--6--6--6--6--
6--6--6--6--6--6--6----6--6--6--6--6--6--6--6--
Revenir en haut Aller en bas
Voir le profil de l'utilisateur
 

[Guitare]An deiner seite

Voir le sujet précédent Voir le sujet suivant Revenir en haut 

 Sujets similaires

-
» [Single] An deiner Seite (ich bin da)
» [ Vente ] Maxi-Singles Tokio Hotel.
» [Photos] Pose d'un résonateur sur une guitare 'normale'
» Choix d'une guitare resonateur ..
» guitare slide indienne.
Page 1 sur 1

Permission de ce forum:Vous ne pouvez pas répondre aux sujets dans ce forum
Forum Liebe-de-th :: Partage :: Partitions et Tablatures-
Sauter vers:  
Créer un forum | © phpBB | Forum gratuit d'entraide | Signaler un abus | Forum gratuit