Forum Liebe-de-th






Hallo die Leute!!!

Bienvenue à toi sur Liebe, si tu n'es pas un de nos membres. Sur Liebe, nous te proposons un tas de possibilités. Tu pourras te tenir au courant de toute l'actualité TokioHotelienne, rencontrer de nouvelles personnes, et même participer au RPG. Choisis ton personnage et fais avancer l'histoire.

Pour plus de renseignements, nous t'invitons à t'inscrire et à nous rejoindre!!

Le Staff.


Forum Liebe-de-th
Le RPG a besoin de personnages. Nous recherchons en priorité Franziska Schäfer, David Jost, Liam Ivanof, Adam Straus.

Partagez | 
 

 [Guitare]1000 Meere (débutant)

Voir le sujet précédent Voir le sujet suivant Aller en bas 
AuteurMessage
● Modératrice ●




Hey, je m'appelle

lili

Féminin
Nombre de messages : 3806
Age : 29
Ta chanson coup de coeur : ....
Date d'inscription : 01/10/2007



MessageSujet: [Guitare]1000 Meere (débutant)   Lun 24 Aoû - 17:42

Difficulté : 3/10




Couplet 1:
E-------------------------------
B-------------------------------
G----4-3----4-3----4-3----4-3---
D--1------2------6------4------- x4
A-------------------------------
E-------------------------------

E-------------------------------
B-------------------------------
G---4-4-4-4-4-------------------
D---4-4-4-4-4-------------------
A---2-2-2-2-2-------------------
E-------------------------------


Refrain:

E-------------------------------
B-------------------------------
G--8----9-----------------------
D--8-x3-9-x3-9-----8-9-8-9------
A--6----7----9-x3--8-9-8-9------
E------------7-----6-7-6-7------

E------------------------------- X2
B-------------------------------
G--8----9-----------------------
D--8-x3-9-x3-9-----8-9-8-6------
A--6----7----9-x3--8-9-8-6------
E------------7-----6-7-6-4------


Couplet 2:
E-------------------------------
B-------------------------------
G----4-3----4-3----4-3----4-3---
D--1------2------6------4------- x4
A-------------------------------
E-------------------------------

E-------------------------------
B-------------------------------
G---4-4-4-4-4-------------------
D---4-4-4-4-4-------------------
A---2-2-2-2-2-------------------
E-------------------------------


Refrain:

E-------------------------------
B-------------------------------
G--8----9-----------------------
D--8-x3-9-x3-9-----8-9-8-9------
A--6----7----9-x3--8-9-8-9------
E------------7-----6-7-6-7------

E------------------------------- X2
B-------------------------------
G--8----9-----------------------
D--8-x3-9-x3-9-----8-9-8-6------
A--6----7----9-x3--8-9-8-6------
E------------7-----6-7-6-4------

Pont1:
E-------------------------------
B-------------------------------
G----------------------
D----------------------
A----------------------
E-------------------------------


Pont2:
E-------------------------------
B-------------------------------
G---------------8-----9--
D---6-6-6-------8-x3--9-------
A---6-6-6--x2---6-----7-------
E---4-4-4--------------------------

Pont3:
E-------------------------------
B-------------------------------
G--6---4---3--------------------
D--6---4---3--------------------x4-5
A--4---2---1--------------------
E-------------------------------

Refrain:

E-------------------------------
B-------------------------------
G--8----9-----------------------
D--8-x3-9-x3-9-----8-9-8-9------
A--6----7----9-x3--8-9-8-9------
E------------7-----6-7-6-7------

E------------------------------- X2
B-------------------------------
G--8----9-----------------------
D--8-x3-9-x3-9-----8-9-8-6------
A--6----7----9-x3--8-9-8-6------
E------------7-----6-7-6-4------

Pont3:
E-------------------------------
B-------------------------------
G--6---4---3--------------------
D--6---4---3--------------------
A--4---2---1--------------------
E-------------------------------
Revenir en haut Aller en bas
Voir le profil de l'utilisateur
 

[Guitare]1000 Meere (débutant)

Voir le sujet précédent Voir le sujet suivant Revenir en haut 

 Sujets similaires

-
» [Clip] 1000 Meere + 1000 oceans
» [Info] Un groupe mexicain copie la chanson "1000 Meere" de Tokio Hotel [EDIT 28/05]
» [FanFiction] 1000 meere für Dich
» [Fanfiction] 1000 Meere - Terminée -
» Vend blouson Bill Kaulitz 1000 meere
Page 1 sur 1

Permission de ce forum:Vous ne pouvez pas répondre aux sujets dans ce forum
Forum Liebe-de-th :: Partage :: Partitions et Tablatures-
Sauter vers:  
Créer un forum | © phpBB | Forum gratuit d'entraide | Signaler un abus | Forum gratuit