Forum Liebe-de-th






Hallo die Leute!!!

Bienvenue à toi sur Liebe, si tu n'es pas un de nos membres. Sur Liebe, nous te proposons un tas de possibilités. Tu pourras te tenir au courant de toute l'actualité TokioHotelienne, rencontrer de nouvelles personnes, et même participer au RPG. Choisis ton personnage et fais avancer l'histoire.

Pour plus de renseignements, nous t'invitons à t'inscrire et à nous rejoindre!!

Le Staff.


Forum Liebe-de-th
Le RPG a besoin de personnages. Nous recherchons en priorité Franziska Schäfer, David Jost, Liam Ivanof, Adam Straus.

Partagez | 
 

 [Guitare]Der letzte tag(débutant)

Voir le sujet précédent Voir le sujet suivant Aller en bas 
AuteurMessage
● Modératrice ●




Hey, je m'appelle

lili

Féminin
Nombre de messages : 3806
Age : 29
Ta chanson coup de coeur : ....
Date d'inscription : 01/10/2007



MessageSujet: [Guitare]Der letzte tag(débutant)   Lun 24 Aoû - 17:44

Difficulté : 3/10



E----------------------------
B----------------------------
G----------------------------
D---4-4--------5-5-5-5-5-5-5- X2
A--4---4-4-3-2-5-5-5-5-5-5-5-
E-2-----2------3-3-3-3-3-3-3-

couplet:

E----------------------------
B----------------------------
G----------------------------
D---4-4--------5-5-5-5-5-5-5- X4
A--4---4-4-3-2-5-5-5-5-5-5-5-
E-2-----2------3-3-3-3-3-3-3-

prés refrain:

E----------------------------------------------
B----------------------------------------------
G----------------------------------------------
D-4--4-4-4-7-7-7-7-7-7-7-4--4-4-4-7-7-7-7-7-7-7-
A-4--4-4-4-7-7-7-7-7-7-7-4--4-4-4-7-7-7-7-7-7-7-
E-2--2-2-2-5-5-5-5-5-5-5-2--2-2-2-5-5-5-5-5-5-5-

refrain:

E------------------------------------------------------------
B------------------------------------------------------------
G------------------------------------------------------------
D-4--4-4-7-7-7--------4--4-4-7-7-7--------4--4-4-7-7-7-------
A-4--4-4-5-5-5-7-7-7--4--4-4-5-5-5-7-7-7--4--4-4-5-5-5-7-7-7-
E-2--2-2-------5-5-4--2--2-2-------5-5-4--2--2-2-------5-5-4-

E-----------------------------
B-----------------------------
G-----------------------------
D-4-4-4-4-4-4-4-7-7-7-7-7-7-7- X2
A-4-4-4-4-4-4-4-7-7-7-7-7-7-7-
E-2-2-2-2-2-2-2-5-5-5-5-5-5-5-

couplet:

E----------------------------
B----------------------------
G----------------------------
D---4-4--------5-5-5-5-5-5-5- X4
A--4---4-4-3-2-5-5-5-5-5-5-5-
E-2-----2------3-3-3-3-3-3-3-
prés refrain:

E----------------------------------------------
B----------------------------------------------
G----------------------------------------------
D-4--4-4-4-7-7-7-7-7-7-7-4--4-4-4-7-7-7-7-7-7-7-
A-4--4-4-4-7-7-7-7-7-7-7-4--4-4-4-7-7-7-7-7-7-7-
E-2--2-2-2-5-5-5-5-5-5-5-2--2-2-2-5-5-5-5-5-5-5-

refrain:

E------------------------------------------------------------
B------------------------------------------------------------
G------------------------------------------------------------
D-4--4-4-7-7-7--------4--4-4-7-7-7--------4--4-4-7-7-7-------
A-4--4-4-5-5-5-7-7-7--4--4-4-5-5-5-7-7-7--4--4-4-5-5-5-7-7-7-
E-2--2-2-------5-5-4--2--2-2-------5-5-4--2--2-2-------5-5-4-

E-----------------------------
B-----------------------------
G-----------------------------
D-4-4-4-4-4-4-4-7-7-7-7-7-7-7- X2
A-4-4-4-4-4-4-4-7-7-7-7-7-7-7-
E-2-2-2-2-2-2-2-5-5-5-5-5-5-5-

E------------------------------------------------------------
B------------------------------------------------------------
G------------------------------------------------------------
D-4--4-4-7-7-7--------4--4-4-7-7-7--------4--4-4-7-7-7-------
A-4--4-4-5-5-5-7-7-7--4--4-4-5-5-5-7-7-7--4--4-4-5-5-5-7-7-7-
E-2--2-2-------5-5-4--2--2-2-------5-5-4--2--2-2-------5-5-4-

refrain:

E---------------------
B---------------------
G---------------------
D-4--4-4-7-7-7-------- X4
A-4--4-4-5-5-5-7-7-7--
E-2--2-2-------5-5-4--

E-------------------------------------------
B-------------------------------------------
G-------------------------------------------
D-4-4-4-4-4-4-4-7-7-7-7-7-7-7-4-4-4-4-4-4-4-
A-4-4-4-4-4-4-4-7-7-7-7-7-7-7-4-4-4-4-4-4-4-
E-2-2-2-2-2-2-2-5-5-5-5-5-5-5-2-2-2-2-2-2-2-

refrain:

E------------------------------------------------------------
B------------------------------------------------------------
G------------------------------------------------------------
D-4--4-4-7-7-7--------4--4-4-7-7-7--------4--4-4-7-7-7-------
A-4--4-4-5-5-5-7-7-7--4--4-4-5-5-5-7-7-7--4--4-4-5-5-5-7-7-7-
E-2--2-2-------5-5-4--2--2-2-------5-5-4--2--2-2-------5-5-4-


FIN

des fois tom joue pas exactement sa il décale tout de 2 cases

ex:

intro:

E----------------------------
B----------------------------
G----------------------------
D---6-6--------7-7-7-7-7-7-7-- X2
A--6---6-6-5-4-7-7-7-7-7-7-7-
E-4-----4------5-5-5-5-5-5-5-
Revenir en haut Aller en bas
Voir le profil de l'utilisateur
 

[Guitare]Der letzte tag(débutant)

Voir le sujet précédent Voir le sujet suivant Revenir en haut 

 Sujets similaires

-
» Arrangement guitare seule pour "Les feuilles mortes" - Joseph Kosma
» Cours de Guitare pour débutant(es) - JP Petit
» Guitare Blues, débutant en quête de conseils
» Pour les débutant de chez debutant en Lapsteel
» Nouveau débutant
Page 1 sur 1

Permission de ce forum:Vous ne pouvez pas répondre aux sujets dans ce forum
Forum Liebe-de-th :: Partage :: Partitions et Tablatures-
Sauter vers:  
Créer un forum | © phpBB | Forum gratuit d'entraide | Signaler un abus | Forum gratuit