Forum Liebe-de-th






Hallo die Leute!!!

Bienvenue à toi sur Liebe, si tu n'es pas un de nos membres. Sur Liebe, nous te proposons un tas de possibilités. Tu pourras te tenir au courant de toute l'actualité TokioHotelienne, rencontrer de nouvelles personnes, et même participer au RPG. Choisis ton personnage et fais avancer l'histoire.

Pour plus de renseignements, nous t'invitons à t'inscrire et à nous rejoindre!!

Le Staff.


Forum Liebe-de-th
Le RPG a besoin de personnages. Nous recherchons en priorité Franziska Schäfer, David Jost, Liam Ivanof, Adam Straus.

Partagez | 
 

 [Guitare]Hifl Mir Fliegen

Voir le sujet précédent Voir le sujet suivant Aller en bas 
AuteurMessage
● Modératrice ●




Hey, je m'appelle

lili

Féminin
Nombre de messages : 3806
Age : 29
Ta chanson coup de coeur : ....
Date d'inscription : 01/10/2007



MessageSujet: [Guitare]Hifl Mir Fliegen   Lun 24 Aoû - 17:46

Difficulté : 5/10



Couplet 1 :

-----------------------------------------
-4-4-4--------4-4--4-4-4-4-4-4-4--------- |
-------------------5-5-5-5-5-5-5--------- | (x3)
-5-5-5-5-5-5--5-5--6-6-6-6-6-6-6--------- |
-6-6-6-6-6-6--6-6--6-6-6-6-6-6-6--------- |
-6-6-6-6-6-6--6-6------------------------ /

Ensuite :


--------------------------------------------------------------------------------------------------
-4-4-4--------4-4--4-4-4-4-4-4-4--4-4-4-------4-4--4-4-4-4-4-4--4-4--4--------4-4--4-4-4-4-4-4-4--
-------------------5-5-5-5-5-5-5--5-5-5-5-5-5-5-5--5-5-5-5-5-5---------------------5-5-5-5-5-5-5--
-5-5-5-5-5-5--5-5--6-6-6-6-6-6-6--5-5-5-5-5-5-5-5--6-6-6-6-6-6--5-5--5-5-5-5--5-5--6-6-6-6-6-6-6--
-6-6-6-6-6-6--6-6--6-6-6-6-6-6-6-------------------6-6-6-6-6-6--6-6--6-6-6-6--6-6--6-6-6-6-6-6-6--
-6-6-6-6-6-6--6-6-----------------------------------------------6-6--6-6-6-6--6-6-----------------

-4-4-4-4-4-4-4--4-4-4-4-4-4-4--4-4-4-4-4-4-4--4--
-6-6-6-6-6-6-6--4-4-4-4-4-4-4--6-6-6-6-6-6-6--4--
-5-5-5-5-5-5-5--5-5-5-5-5-5-5--5-5-5-5-5-5-5--5--
----------------6-6-6-6-6-6-6-----------------6--
----------------6-6-6-6-6-6-6-----------------6--
----------------4-4-4-4-4-4-4-----------------4--

Refrain :

------6-6-----------6-6-6-6-----------------6-----------6-6-6-6-----------------4-4-4-4-4-4-4---------------
-4-4-------4-4-4-4-----------4-4-4-4-4-4-4-----4-4-4-4-----------4-4-4-4-4-4-4--4-4-4-4-4-4-4--4-4-4-4-4-4-4
-5-5-------------------------5-5-5-5-5-5-5-----------------------5-5-5-5-5-5-5--5-5-5-5-5-5-5--5-5-5-5-5-5-5
-5-5-------5-5-5-5-----------5-5-5-5-5-5-5-----5-5-5-5-----------5-5-5-5-5-5-5--6-6-6-6-6-6-6--5-5-5-5-5-5-5
------5-5--6-6-6-6--5-5-5-5-----------------5--6-6-6-6--5-5-5-5-----------------6-6-6-6-6-6-6---------------
------6-6--6-6-6-6--6-6-6-6-----------------6--6-6-6-6--6-6-6-6-----------------4-4-4-4-4-4-4---------------

-4-4-4-4-4-4-4-4--
-4-4-4-4-4-4-4-4--
-5-5-5-5-5-5-5-5--
-6-6-6-6-6-6-6-6--
-4-4-4-4-4-4-4-4--
-4-4-4-4-4-4-4-4--

couplet 2 :
voir couplet 1 ci-dessus

Refrain :


------6-6-----------6-6-6-6-----------------6-----------6-6-6-6-----------------4-4-4-4-4-4-4---------------
-4-4-------4-4-4-4-----------4-4-4-4-4-4-4-----4-4-4-4-----------4-4-4-4-4-4-4--4-4-4-4-4-4-4--4-4-4-4-4-4-4
-5-5-------------------------5-5-5-5-5-5-5-----------------------5-5-5-5-5-5-5--5-5-5-5-5-5-5--5-5-5-5-5-5-5
-5-5-------5-5-5-5-----------5-5-5-5-5-5-5-----5-5-5-5-----------5-5-5-5-5-5-5--6-6-6-6-6-6-6--5-5-5-5-5-5-5
------5-5--6-6-6-6--5-5-5-5-----------------5--6-6-6-6--5-5-5-5-----------------6-6-6-6-6-6-6---------------
------6-6--6-6-6-6--6-6-6-6-----------------6--6-6-6-6--6-6-6-6-----------------4-4-4-4-4-4-4---------------

-4-4-4-4-4-4-4-4-4-4-4-4-4-4-4-4-4-4-4-4--
-4-4-4-4-4-4-4-4-4-4-4-4-4-4-4-4-4-4-4-4--
-5-5-5-5-5-5-5-5-5-5-5-5-5-5-5-5-5-5-5-5--
-6-6-6-6-6-6-6-6-6-6-6-6-6-6-6-6-6-6-6-6--
-4-4-4-4-4-4-4-4-4-4-4-4-4-4-4-4-4-4-4-4--
-4-4-4-4-4-4-4-4-4-4-4-4-4-4-4-4-4-4-4-4--

Pont :

-6-6-6-6-6-6-6--4-4-4-4-4-4-4--4--6-6-6-6-6--4-4-4-4-4-4-4--6-6-6-6-6-6-6---------
----------------6-6-6-6-6-6-6--6-------------6-6-6-6-6-6-6------------------------
----------------5-5-5-5-5-5-5--5-------------5-5-5-5-5-5-5------------------------
-------------------------------6--------------------------------------------------
-5-5-5-5-5-5-5-----------------6--5-5-5-5-5-----------------5-5-5-5-5-5-5---------
-6-6-6-6-6-6-6-----------------4--6-6-6-6-6-----------------6-6-6-6-6-6-6---------

-4-4-4-4-4-4-4--6--
-6-6-6-6-6-6-6-----
-5-5-5-5-5-5-5-----
-------------------
----------------5--
----------------6--

Avant le dernier refrain :

----------
-4---4-4--
-------5--
-5-5-5-6--
-6-6-6-6--
-6-6-6----

Dérnier Refrain :

------6-6-----------6-6-6-6-----------------6-----------6-6-6-6-----------------4-4-4-4-4-4-4---------------
-4-4-------4-4-4-4-----------4-4-4-4-4-4-4-----4-4-4-4-----------4-4-4-4-4-4-4--4-4-4-4-4-4-4--4-4-4-4-4-4-4
-5-5-------------------------5-5-5-5-5-5-5-----------------------5-5-5-5-5-5-5--5-5-5-5-5-5-5--5-5-5-5-5-5-5
-5-5-------5-5-5-5-----------5-5-5-5-5-5-5-----5-5-5-5-----------5-5-5-5-5-5-5--6-6-6-6-6-6-6--5-5-5-5-5-5-5
------5-5--6-6-6-6--5-5-5-5-----------------5--6-6-6-6--5-5-5-5-----------------6-6-6-6-6-6-6---------------
------6-6--6-6-6-6--6-6-6-6-----------------6--6-6-6-6--6-6-6-6-----------------4-4-4-4-4-4-4---------------

-4-4-4-4-4-4-4-4--
-4-4-4-4-4-4-4-4-- |
-5-5-5-5-5-5-5-5-- | Depuis le début du "Dérnier Refrain" (x2)
-6-6-6-6-6-6-6-6-- |
-4-4-4-4-4-4-4-4-- |
-4-4-4-4-4-4-4-4-- /

Fin :


-------------------------------------
-4-4-4--------4-4--4-4-4-4-4-4-4--4--
-------------------5-5-5-5-5-5-5-----
-5-5-5-5-5-5--5-5--6-6-6-6-6-6-6--5--
-6-6-6-6-6-6--6-6--6-6-6-6-6-6-6--6--
-6-6-6-6-6-6--6-6-----------------6--
Revenir en haut Aller en bas
Voir le profil de l'utilisateur




Hey, je m'appelle

Invité




MessageSujet: Re: [Guitare]Hifl Mir Fliegen   Jeu 5 Aoû - 0:03

Merci Ma Poune ♥
Revenir en haut Aller en bas
● Modératrice ●




Hey, je m'appelle

lili

Féminin
Nombre de messages : 3806
Age : 29
Ta chanson coup de coeur : ....
Date d'inscription : 01/10/2007



MessageSujet: Re: [Guitare]Hifl Mir Fliegen   Jeu 5 Aoû - 0:11

sa date dis donc
Revenir en haut Aller en bas
Voir le profil de l'utilisateur




Hey, je m'appelle

Contenu sponsorisé




MessageSujet: Re: [Guitare]Hifl Mir Fliegen   Aujourd'hui à 11:00

Revenir en haut Aller en bas
 

[Guitare]Hifl Mir Fliegen

Voir le sujet précédent Voir le sujet suivant Revenir en haut 

 Sujets similaires

-
» [Photos] Pose d'un résonateur sur une guitare 'normale'
» Choix d'une guitare resonateur ..
» guitare slide indienne.
» caisse pour guitare type parlor /oahu et 0 size 00 et 000
» Avant la guitare : luth, théorbe, archiluth, guitare baroque
Page 1 sur 1

Permission de ce forum:Vous ne pouvez pas répondre aux sujets dans ce forum
Forum Liebe-de-th :: Partage :: Partitions et Tablatures-
Sauter vers:  
Créer un forum | © phpBB | Forum gratuit d'entraide | Signaler un abus | Forumactif.com